ISO-10303-21;
HEADER;
FILE_DESCRIPTION (( 'STEP AP203' ),
    '1' );
FILE_NAME ('Q-AZHWP-25.4-488-M.STEP',
    '2020-12-22T09:10:15',
    ( '' ),
    ( '' ),
    'SwSTEP 2.0',
    'SolidWorks 2020',
    '' );
FILE_SCHEMA (( 'CONFIG_CONTROL_DESIGN' ));
ENDSEC;

DATA;
#1 = FACE_OUTER_BOUND ( 'NONE', #93, .T. ) ;
#2 = PLANE ( 'NONE',  #25 ) ;
#3 = LOCAL_TIME ( 17, 10, 15.00000000000000000, #4 ) ;
#4 = COORDINATED_UNIVERSAL_TIME_OFFSET ( 8, 0, .AHEAD. ) ;
#5 = PERSON_AND_ORGANIZATION_ROLE ( 'creator' ) ;
#6 = AXIS2_PLACEMENT_3D ( 'NONE', #78, #124, #112 ) ;
#7 = CC_DESIGN_APPROVAL ( #35, ( #110 ) ) ;
#8 = ORIENTED_EDGE ( 'NONE', *, *, #90, .F. ) ;
#9 = PRODUCT_RELATED_PRODUCT_CATEGORY ( 'detail', '', ( #63 ) ) ;
#10 = CARTESIAN_POINT ( 'NONE',  ( -3.000000000000000000, 0.000000000000000000, 0.000000000000000000 ) ) ;
#11 = LOCAL_TIME ( 17, 10, 15.00000000000000000, #45 ) ;
#12 = DIRECTION ( 'NONE',  ( 0.000000000000000000, 0.000000000000000000, 1.000000000000000000 ) ) ;
#13 = CARTESIAN_POINT ( 'NONE',  ( -1.614212418857619014, 0.000000000000000000, 0.000000000000000000 ) ) ;
#14 = ADVANCED_FACE ( 'NONE', ( #85 ), #144, .T. ) ;
#15 = CARTESIAN_POINT ( 'NONE',  ( -3.000000000000000888, 12.69999999999999929, 0.000000000000000000 ) ) ;
#16 = PERSON_AND_ORGANIZATION ( #173, #157 ) ;
#17 = PERSON_AND_ORGANIZATION_ROLE ( 'design_owner' ) ;
#18 = ORIENTED_EDGE ( 'NONE', *, *, #90, .T. ) ;
#19 = DATE_AND_TIME ( #113, #11 ) ;
#20 = CC_DESIGN_PERSON_AND_ORGANIZATION_ASSIGNMENT ( #73, #120, ( #48 ) ) ;
#21 = VERTEX_POINT ( 'NONE', #40 ) ;
#22 = CC_DESIGN_PERSON_AND_ORGANIZATION_ASSIGNMENT ( #34, #17, ( #63 ) ) ;
#23 = SHAPE_DEFINITION_REPRESENTATION ( #154, #92 ) ;
#24 = DIRECTION ( 'NONE',  ( 0.000000000000000000, 0.000000000000000000, 1.000000000000000000 ) ) ;
#25 = AXIS2_PLACEMENT_3D ( 'NONE', #84, #98, #137 ) ;
#26 = CARTESIAN_POINT ( 'NONE',  ( 3.000000000000000000, 0.000000000000000000, 0.000000000000000000 ) ) ;
#27 = DIRECTION ( 'NONE',  ( 1.000000000000000000, 0.000000000000000000, 0.000000000000000000 ) ) ;
#28 = DIRECTION ( 'NONE',  ( -1.000000000000000000, -0.000000000000000000, -0.000000000000000000 ) ) ;
#29 = LINE ( 'NONE', #49, #77 ) ;
#30 = EDGE_CURVE ( 'NONE', #155, #95, #32, .T. ) ;
#31 = CC_DESIGN_APPROVAL ( #43, ( #161 ) ) ;
#32 = CIRCLE ( 'NONE', #141, 15.00000000000000000 ) ;
#33 = APPROVAL_DATE_TIME ( #74, #35 ) ;
#34 = PERSON_AND_ORGANIZATION ( #173, #157 ) ;
#35 = APPROVAL ( #103, 'UNSPECIFIED' ) ;
#36 = ORIENTED_EDGE ( 'NONE', *, *, #163, .T. ) ;
#37 = ORIENTED_EDGE ( 'NONE', *, *, #30, .F. ) ;
#38 = EDGE_LOOP ( 'NONE', ( #36, #134, #37, #8 ) ) ;
#39 = DIRECTION ( 'NONE',  ( -1.000000000000000000, -0.000000000000000000, -0.000000000000000000 ) ) ;
#40 = CARTESIAN_POINT ( 'NONE',  ( 3.000000000000000000, 1.836970198721029589E-15, -15.00000000000000000 ) ) ;
#41 = CIRCLE ( 'NONE', #150, 15.00000000000000000 ) ;
#42 = APPROVAL_PERSON_ORGANIZATION ( #101, #43, #88 ) ;
#43 = APPROVAL ( #44, 'UNSPECIFIED' ) ;
#44 = APPROVAL_STATUS ( 'not_yet_approved' ) ;
#45 = COORDINATED_UNIVERSAL_TIME_OFFSET ( 8, 0, .AHEAD. ) ;
#46 = PERSON_AND_ORGANIZATION ( #173, #157 ) ;
#47 = DESIGN_CONTEXT ( 'detailed design', #165, 'design' ) ;
#48 = SECURITY_CLASSIFICATION ( '', '', #138 ) ;
#49 = CARTESIAN_POINT ( 'NONE',  ( -1.614212418857619014, 0.000000000000000000, 15.00000000000000000 ) ) ;
#50 = COORDINATED_UNIVERSAL_TIME_OFFSET ( 8, 0, .AHEAD. ) ;
#51 = DIRECTION ( 'NONE',  ( 0.000000000000000000, 0.000000000000000000, 1.000000000000000000 ) ) ;
#52 = CLOSED_SHELL ( 'NONE', ( #96, #94, #14, #87 ) ) ;
#53 = DIRECTION ( 'NONE',  ( 0.000000000000000000, 0.000000000000000000, 1.000000000000000000 ) ) ;
#54 = CC_DESIGN_APPROVAL ( #133, ( #48 ) ) ;
#55 = EDGE_CURVE ( 'NONE', #95, #155, #41, .T. ) ;
#56 = FACE_OUTER_BOUND ( 'NONE', #38, .T. ) ;
#57 = LINE ( 'NONE', #116, #64 ) ;
#58 = LOCAL_TIME ( 17, 10, 15.00000000000000000, #152 ) ;
#59 =( NAMED_UNIT ( * ) PLANE_ANGLE_UNIT ( ) SI_UNIT ( $, .RADIAN. ) );
#60 = COORDINATED_UNIVERSAL_TIME_OFFSET ( 8, 0, .AHEAD. ) ;
#61 = APPLICATION_PROTOCOL_DEFINITION ( 'international standard', 'config_control_design', 1994, #165 ) ;
#62 = ORIENTED_EDGE ( 'NONE', *, *, #136, .F. ) ;
#63 = PRODUCT ( 'Q-AZHWP-25.4-488-M', 'Q-AZHWP-25.4-488-M', '', ( #149 ) ) ;
#64 = VECTOR ( 'NONE', #117, 1000.000000000000000 ) ;
#65 = EDGE_LOOP ( 'NONE', ( #62, #127, #18, #162 ) ) ;
#66 = DATE_AND_TIME ( #131, #146 ) ;
#67 = APPROVAL_ROLE ( '' ) ;
#68 = DIRECTION ( 'NONE',  ( 0.000000000000000000, 0.000000000000000000, 1.000000000000000000 ) ) ;
#69 = PERSON_AND_ORGANIZATION ( #173, #157 ) ;
#70 = ORIENTED_EDGE ( 'NONE', *, *, #163, .F. ) ;
#71 = CARTESIAN_POINT ( 'NONE',  ( -3.000000000000000000, 0.000000000000000000, 0.000000000000000000 ) ) ;
#72 = CARTESIAN_POINT ( 'NONE',  ( -3.000000000000000000, 1.836970198721029589E-15, -15.00000000000000000 ) ) ;
#73 = PERSON_AND_ORGANIZATION ( #173, #157 ) ;
#74 = DATE_AND_TIME ( #122, #58 ) ;
#75 = APPLICATION_PROTOCOL_DEFINITION ( 'international standard', 'config_control_design', 1994, #156 ) ;
#76 = EDGE_CURVE ( 'NONE', #21, #114, #104, .T. ) ;
#77 = VECTOR ( 'NONE', #86, 1000.000000000000000 ) ;
#78 = CARTESIAN_POINT ( 'NONE',  ( 0.000000000000000000, 0.000000000000000000, 0.000000000000000000 ) ) ;
#79 = CIRCLE ( 'NONE', #175, 15.00000000000000000 ) ;
#80 = CC_DESIGN_DATE_AND_TIME_ASSIGNMENT ( #82, #148, ( #48 ) ) ;
#81 = CARTESIAN_POINT ( 'NONE',  ( 3.000000000000000000, 0.000000000000000000, 0.000000000000000000 ) ) ;
#82 = DATE_AND_TIME ( #108, #3 ) ;
#83 = LOCAL_TIME ( 17, 10, 15.00000000000000000, #60 ) ;
#84 = CARTESIAN_POINT ( 'NONE',  ( 3.000000000000000888, 12.69999999999999929, 0.000000000000000000 ) ) ;
#85 = FACE_OUTER_BOUND ( 'NONE', #65, .T. ) ;
#86 = DIRECTION ( 'NONE',  ( -1.000000000000000000, -0.000000000000000000, -0.000000000000000000 ) ) ;
#87 = ADVANCED_FACE ( 'NONE', ( #107 ), #174, .F. ) ;
#88 = APPROVAL_ROLE ( '' ) ;
#89 = DATE_TIME_ROLE ( 'creation_date' ) ;
#90 = EDGE_CURVE ( 'NONE', #114, #155, #29, .T. ) ;
#91 = CALENDAR_DATE ( 2020, 22, 12 ) ;
#92 = ADVANCED_BREP_SHAPE_REPRESENTATION ( 'Q-AZHWP-25.4-488-M', ( #129, #6 ), #145 ) ;
#93 = EDGE_LOOP ( 'NONE', ( #70, #169 ) ) ;
#94 = ADVANCED_FACE ( 'NONE', ( #1 ), #2, .F. ) ;
#95 = VERTEX_POINT ( 'NONE', #72 ) ;
#96 = ADVANCED_FACE ( 'NONE', ( #56 ), #119, .T. ) ;
#97 = CARTESIAN_POINT ( 'NONE',  ( -3.000000000000000000, 0.000000000000000000, 15.00000000000000000 ) ) ;
#98 = DIRECTION ( 'NONE',  ( -1.000000000000000000, 0.000000000000000000, -0.000000000000000000 ) ) ;
#99 = DIRECTION ( 'NONE',  ( -1.000000000000000000, -0.000000000000000000, -0.000000000000000000 ) ) ;
#100 = PERSON_AND_ORGANIZATION_ROLE ( 'creator' ) ;
#101 = PERSON_AND_ORGANIZATION ( #173, #157 ) ;
#102 = DATE_AND_TIME ( #91, #83 ) ;
#103 = APPROVAL_STATUS ( 'not_yet_approved' ) ;
#104 = CIRCLE ( 'NONE', #123, 15.00000000000000000 ) ;
#105 = CC_DESIGN_DATE_AND_TIME_ASSIGNMENT ( #102, #89, ( #110 ) ) ;
#106 = DIRECTION ( 'NONE',  ( -1.000000000000000000, -0.000000000000000000, -0.000000000000000000 ) ) ;
#107 = FACE_OUTER_BOUND ( 'NONE', #109, .T. ) ;
#108 = CALENDAR_DATE ( 2020, 22, 12 ) ;
#109 = EDGE_LOOP ( 'NONE', ( #153, #125 ) ) ;
#110 = PRODUCT_DEFINITION ( 'UNKNOWN', '', #161, #47 ) ;
#111 = APPROVAL_ROLE ( '' ) ;
#112 = DIRECTION ( 'NONE',  ( 1.000000000000000000, 0.000000000000000000, 0.000000000000000000 ) ) ;
#113 = CALENDAR_DATE ( 2020, 22, 12 ) ;
#114 = VERTEX_POINT ( 'NONE', #172 ) ;
#115 = DIRECTION ( 'NONE',  ( 0.000000000000000000, 0.000000000000000000, -1.000000000000000000 ) ) ;
#116 = CARTESIAN_POINT ( 'NONE',  ( -1.614212418857619014, 1.836970198721029589E-15, -15.00000000000000000 ) ) ;
#117 = DIRECTION ( 'NONE',  ( -1.000000000000000000, -0.000000000000000000, -0.000000000000000000 ) ) ;
#118 = DIRECTION ( 'NONE',  ( 0.000000000000000000, 0.000000000000000000, 1.000000000000000000 ) ) ;
#119 = CYLINDRICAL_SURFACE ( 'NONE', #143, 15.00000000000000000 ) ;
#120 = PERSON_AND_ORGANIZATION_ROLE ( 'classification_officer' ) ;
#121 =( NAMED_UNIT ( * ) SI_UNIT ( $, .STERADIAN. ) SOLID_ANGLE_UNIT ( ) );
#122 = CALENDAR_DATE ( 2020, 22, 12 ) ;
#123 = AXIS2_PLACEMENT_3D ( 'NONE', #81, #99, #118 ) ;
#124 = DIRECTION ( 'NONE',  ( 0.000000000000000000, 0.000000000000000000, 1.000000000000000000 ) ) ;
#125 = ORIENTED_EDGE ( 'NONE', *, *, #55, .T. ) ;
#126 = APPROVAL_DATE_TIME ( #19, #43 ) ;
#127 = ORIENTED_EDGE ( 'NONE', *, *, #76, .T. ) ;
#128 = AXIS2_PLACEMENT_3D ( 'NONE', #130, #39, #68 ) ;
#129 = MANIFOLD_SOLID_BREP ( 'Ðý×', #52 ) ;
#130 = CARTESIAN_POINT ( 'NONE',  ( -1.614212418857619014, 0.000000000000000000, 0.000000000000000000 ) ) ;
#131 = CALENDAR_DATE ( 2020, 22, 12 ) ;
#132 = APPROVAL_PERSON_ORGANIZATION ( #164, #35, #111 ) ;
#133 = APPROVAL ( #159, 'UNSPECIFIED' ) ;
#134 = ORIENTED_EDGE ( 'NONE', *, *, #136, .T. ) ;
#135 = DIRECTION ( 'NONE',  ( -1.000000000000000000, -0.000000000000000000, -0.000000000000000000 ) ) ;
#136 = EDGE_CURVE ( 'NONE', #21, #95, #57, .T. ) ;
#137 = DIRECTION ( 'NONE',  ( -0.000000000000000000, 0.000000000000000000, 1.000000000000000000 ) ) ;
#138 = SECURITY_CLASSIFICATION_LEVEL ( 'unclassified' ) ;
#139 = AXIS2_PLACEMENT_3D ( 'NONE', #15, #27, #115 ) ;
#140 = CC_DESIGN_PERSON_AND_ORGANIZATION_ASSIGNMENT ( #167, #100, ( #161 ) ) ;
#141 = AXIS2_PLACEMENT_3D ( 'NONE', #71, #135, #24 ) ;
#142 = APPROVAL_DATE_TIME ( #66, #133 ) ;
#143 = AXIS2_PLACEMENT_3D ( 'NONE', #13, #106, #12 ) ;
#144 = CYLINDRICAL_SURFACE ( 'NONE', #128, 15.00000000000000000 ) ;
#145 =( GEOMETRIC_REPRESENTATION_CONTEXT ( 3 ) GLOBAL_UNCERTAINTY_ASSIGNED_CONTEXT ( ( #168 ) ) GLOBAL_UNIT_ASSIGNED_CONTEXT ( ( #160, #59, #121 ) ) REPRESENTATION_CONTEXT ( 'NONE', 'WORKASPACE' ) );
#146 = LOCAL_TIME ( 17, 10, 15.00000000000000000, #50 ) ;
#147 = PERSON_AND_ORGANIZATION_ROLE ( 'design_supplier' ) ;
#148 = DATE_TIME_ROLE ( 'classification_date' ) ;
#149 = MECHANICAL_CONTEXT ( 'NONE', #156, 'mechanical' ) ;
#150 = AXIS2_PLACEMENT_3D ( 'NONE', #10, #28, #51 ) ;
#151 = CC_DESIGN_SECURITY_CLASSIFICATION ( #48, ( #161 ) ) ;
#152 = COORDINATED_UNIVERSAL_TIME_OFFSET ( 8, 0, .AHEAD. ) ;
#153 = ORIENTED_EDGE ( 'NONE', *, *, #30, .T. ) ;
#154 = PRODUCT_DEFINITION_SHAPE ( 'NONE', 'NONE',  #110 ) ;
#155 = VERTEX_POINT ( 'NONE', #97 ) ;
#156 = APPLICATION_CONTEXT ( 'configuration controlled 3d designs of mechanical parts and assemblies' ) ;
#157 = ORGANIZATION ( 'UNSPECIFIED', 'UNSPECIFIED', '' ) ;
#158 = DIRECTION ( 'NONE',  ( -1.000000000000000000, -0.000000000000000000, -0.000000000000000000 ) ) ;
#159 = APPROVAL_STATUS ( 'not_yet_approved' ) ;
#160 =( LENGTH_UNIT ( ) NAMED_UNIT ( * ) SI_UNIT ( .MILLI., .METRE. ) );
#161 = PRODUCT_DEFINITION_FORMATION_WITH_SPECIFIED_SOURCE ( 'ANY', '', #63, .NOT_KNOWN. ) ;
#162 = ORIENTED_EDGE ( 'NONE', *, *, #55, .F. ) ;
#163 = EDGE_CURVE ( 'NONE', #114, #21, #79, .T. ) ;
#164 = PERSON_AND_ORGANIZATION ( #173, #157 ) ;
#165 = APPLICATION_CONTEXT ( 'configuration controlled 3d designs of mechanical parts and assemblies' ) ;
#166 = CC_DESIGN_PERSON_AND_ORGANIZATION_ASSIGNMENT ( #16, #5, ( #110 ) ) ;
#167 = PERSON_AND_ORGANIZATION ( #173, #157 ) ;
#168 = UNCERTAINTY_MEASURE_WITH_UNIT (LENGTH_MEASURE( 1.000000000000000082E-05 ), #160, 'distance_accuracy_value', 'NONE');
#169 = ORIENTED_EDGE ( 'NONE', *, *, #76, .F. ) ;
#170 = APPROVAL_PERSON_ORGANIZATION ( #69, #133, #67 ) ;
#171 = CC_DESIGN_PERSON_AND_ORGANIZATION_ASSIGNMENT ( #46, #147, ( #161 ) ) ;
#172 = CARTESIAN_POINT ( 'NONE',  ( 3.000000000000000000, 0.000000000000000000, 15.00000000000000000 ) ) ;
#173 = PERSON ( 'UNSPECIFIED', 'UNSPECIFIED', 'UNSPECIFIED', ('UNSPECIFIED'), ('UNSPECIFIED'), ('UNSPECIFIED') ) ;
#174 = PLANE ( 'NONE',  #139 ) ;
#175 = AXIS2_PLACEMENT_3D ( 'NONE', #26, #158, #53 ) ;
ENDSEC;
END-ISO-10303-21;
